Riff
e---------------------------------------------
B---------------------------------------------
G--4-2-4-2-4-2-4-2-4-2-4-2-4-2-4-2-4-2-4-2----
D---4-4-4-4-4-4-4-2-2-2-2-2-2-2-0-0-0-0-0-0---
A---------------------------------------------
E---------------------------------------------
Things you forget to say will haunt you
Been down here a million days
e------------0--------------------------------
B----------0----0-----------------------------
G------2----------2---------------------------
D----2---2------------------------------------ Guitar 2
A--0------------------------------------------
E---------------------------------------------
I know you'll get me through
You don't need to stay 'cause I will never be alone
A5
Do you cry anymore?

A5
You're in a never ending
E5 G5
Bitter and condescending mood
B5 A5
I just wanna be by you
And everything will turn to. . .?
A dream is a fallacy come true
Just wanna spend some time with you
F#5 B5 A5
On a beautiful day

e-------------------------------------------
B---3-2-------------------------------------
G-------4-2---------------------------------
D------------------------------------------- Guitar 1
A-------------------------------------------
E-------------------------------------------
Seeing the morning in, forget to
Worry about the things that hurt you
If you come independent now
Is it cold where you are to
Freeze no more

You're in a never ending
Bitter and condescending mood
I just wanna be by you
And everything will turn to. . .?
A dream is a fallacy come true
Just wanna spend some time with you
On a beautiful day
The goddess will throw it away
'Cause we will be as lucky as the last tiny child
Your habit's don't throw it away
We are on the other side

A5
You know you're talking about the old time
Walking down an open road
F#5 A5 D5
But failing to disguise
Revealin' the sign
E
Nothing you can do will change me

Nothing you can do will change me
It's a beautiful day

End on an A