Intro/verse:
A5-G5-A5-A5-G5-A5-C5-C5-B5-Bb5
A5-G5-A5-A5-G5-A5-C5-C5-B5-Bb5 (riff one)

e----------------------------------------------
B----------------------------------------------
G---9/10\7-------------------------------------
D---9/10\9-------------------------------------
A---7/8-\7-------------------------------------
E----------------------------------------------

Love hate, hate love, which side now
You look like heart burn
Pray still my dear agnostic
Despise what you learned

A5
Hateslick, core is rotten
Hateslick, long forgotten

I'd die to make the right sounds
You look so far away
You're talking like a someone
Yet you got nothin' to say

Hateslick, core is rotten
Hateslick, long forgotten, you say

F5(VII) D5 F5(VII) E5(VII) E5
Yeah, yeah, yeah, yeah, yeah,
Yeah, yeah
Yeah, yeah, yeah, yeah, yeah,
Yeah, yeah

B5
Just wanna talk to you
Just wanna get through to you
B5 A5 C5
But I'm slidin' on your hateslick

(Solo)
E5-Bb5
E5-G5 (x2)

Yeah, yeah, yeah, yeah, yeah,
Yeah, yeah
Yeah, yeah, yeah, yeah, yeah,
Yeah, yeah

Riff 2
e----------------------------------------------
B-0-0-2-2-4-4-2-4-2-0--------------------------
G----------------------------------------------
D----------------------------------------------
A----------------------------------------------
E----------------------------------------------

Just wanna talk to you
Just wanna get through to you
But I'm slidin' on your hateslick

G5 B5
Just wanna talk to ya
F5 C5
Just wanna talk to ya

G5-E5-F5-G5
Yeah, yeah

End on G5