Riff
E-1-2-3-1-2-2-1-2-3-3-3-3-3--1-2-3-1-2-2-1-2-3-3-3-3-3----------

In the human factory
They've got this place for me
They tell me what to see
A head down and so free
Right where you're supposed to be

C#5 A5
If you're looking up on the way down
B5 G#5
And there's nobody else around
C#5 A5
Just find a hole in the ground
G#5 F#5
Where I won't see you

In the human factory
They've got this lunacy
Most things I can't believe
End up so easy

If you're looking up on the way down
And there's nobody else around
Just find a hole in the ground
Where I won't see you

G------11\9-------11\9-------11\9---------------------------
D--2----------2----------2--------10101010101010------------
A--2----9\7---2----9\7---2----9\7-10101010101010------------
E--0----------0----------0---------8-8-8-8-8-8-8------------

G------11\9-------11\9-------11\9-11111111111111------------
D--2----------2----------2--------11111111111111------------
A--2----9\7---2----9\7---2----9\7--9-9-9-9-9-9-9------------
E--0----------0----------0----------------------------------

Don't waste this time anymore
Used cars and second hand stores
No voice just barcode symmetry
Baby it's ours in the human factory
(Riff)

(Solo)
G-13---8/9-11\8\6\4/6---13---8/9--111111-13-13-13-14-14-14-16-16-16--
D-------------------------------------------------------------------
A-11---6/7--9\6\4\2/4---11---6/7--/9-9-9/11-11-11-12-12-12-14-14-14--

In the human factory
Where they left you hungry
When most is only
Real love is tv

Don't waste this time anymore
Used cars and second hand stores
No voice just barcode symmetry
Baby it's ours in the human factory
Anything's ours in the human factory