I had the best intentions yeah honestly
G#5
I paid attention
B5
I'm a loose connection, so promise me
A soft injection

C#5 E5 F#5 C#5 A5 B5
A shallow feeling, defies meaning

E5(VII) B5
I need a holiday to blow you all away
C#5 G#5
Love all the stiffs in my parade
I need a holiday a nuclear holiday
Just go anywhere I'll stay

B5
Fell on the outside where givin' in
G#5
Comes in like the tide
And everybody's shining, perfecting
Moments in timing

A shallow feeling, defies meaning

I need a holiday to blow you all away
Love all the stiffs in my parade
I need a holiday a nuclear holiday
Just go anywhere I'll stay

(Solo)
e------------------------------------------------------------
B------------------------------------------------------------
G----------------------------9-9-9-8-8-8-6-6-6-------9-11-9--
D----6-7-6---9-6-7-6---9-9-9-------------------9-9-9---------
A----------7---------7---------------------------------------
E------------------------------------------------------------

e------------------------------------------------------------
B------------------------------------------------------------
G-------------------------9b11r9-11b-(full bend)-------------
D----6-7-6---9-6-7-6---9-------------------------------------
A----------7---------7---------------------------------------
E------------------------------------------------------------

E5 B5
If I talk you talk the words I say
C#5 G#5
Come back around a different way
The end is just a breath away
If you ain't got a weapon then you'll never get a say

I need a holiday to blow you all away
Love all the stiffs in my parade
I need a holiday a nuclear holiday
Just go anywhere I'll stay