D5
When the one thing in your life comes crashing
E5(VII) B5
What you gonna do?
When naivety was my energy power was your tool
Then you broke me down like diamonds
And turned my blood to rust
Abuser of an innocence, your real love was lust

D5 F5(VII)
'Cause you had to be something, to be someone

D5
And play, play, play, play games with heads
E5(VII) B5
Go the chills when you past go
And you had me like a remote
All you wanted was control

'Cause you had to be something, to be someone

C5 F5
And here are the terms of which I live
C5 F5
I'll hate who I want and I'll give when I give
B5
And just because you're insecure
D5 C5
Doesn't mean you couldn't be pure (x2)

(Solo)
G--8------9--8------9--8------11--8------11-14-13-11-9--------
D----11-9------11-9------11-9-------11-9----------------------

G--8------9--8------9--8------11--8------11-14-13-11-9-8-9-11-
D----11-9------11-9------11-9-------11-9----------------------

E5(VII) F#5(VII) G5(VII)
One lie for one lie

e--------------------------
B-3-3--5-5-----------------
G-2-2--4-4---4----4-------- (x3)
D-0-0--2-2---4----4--------
A----------2----2---2------
E--------------------------
And now I bet your happy and you've let it go so soon
A5 D5
Always at the back of my mind
'Cause you had to be something, to be someone
And here are the terms of which I live
I'll hate who I want and I'll give when I give
And just because you're insecure
Doesn't mean you couldn't be pure (x4)