Intro: Em 022000

E5 B5 C5 G5
Is this success
Tuesday night and penny less
Sign on chill out is this your shout

(Riff one)
G-4----/8/9/11\9\7---------------------------------------------------
D--------------------------------------------------------------------
A-2----/6/7/9-\7\5---------------------------------------------------
For gone I am, in life I'm damned

E5 B5 C5 G5
This is like Hollywood
E5 B5 C5 D5
All front do depth no good
This is my Hollywood
I'd run I wish I could

Too blind not me, I've seen the scenery
Palm trees blue skies, blown out snake eyes

(Riff one)
Your not I am
Is this to much to understand

This is like Hollywood
All front do depth no good
This is my Hollywood
I'd run I wish I could

(Riff 2)
e------0--|--------------0------------------------------------------
B------0--|------------0---0----------------------------------------
G------2--|----------1-------1--------------------------------------
D------3--|--------2-----------2------------------------------------
A------3--|------2---------------2----------------------------------
E------1--|----0-------------------0--------------------------------
Who wants to live in Hollywood?
I don't think I could
E5 (second part of riff two)
You like to think you live in a world so good

(Solo)
G----------------------------------4-4-4-4h5-5-5-4-4-4-4-4h5p4-5-7-9-
D--------------------------------------------------------------------
A-2-2-2-2h3-3-3-2-2-2-2-2h3-3-3-2------------------------------------

This is like Hollywood
All front do depth no good
This is my Hollywood
I'd run I wish I could
(Riff three)
G-----11b13r11p9-11b13r11p9-11b13r11p9-11b13r11p9--------------------
D-------------------------------------------------9------------------
This is my Hollywood (x4)