Chords: G#7:466x00 B7:x24400 F#7:244300 A7:x02200
E5(VII):x799xx E:022100

Intro: Riff 1
e------2-------0-------|--0-0-0000-0------------------
B----0---0---0---0-----|--0-0-0000-0------------------
G--1-------------------|--1-1-1111-1------------------
D----------2-----------|--2-2-2222-2------------------
A----------------------|--2-2-2222-2------------------
E----------------------|--0-0-0000-0------------------

A G#7 E
Tonight we ride
How did this come together
Feeling like never before
And nothing will come again
Sisters in arms
Brothers do your pleats a mission(?)
You're running to intermission
And nothing will come again

F#7 E
You wanna love them all
F#7 B7
You only see the downside

(Chorus)
E5(VII) B7
You gotta come on and open up wide in here
A7 E
'Cause I wouldn't mind a throughbreeze
(Riff two)
E--4-2-0--
Come on and get it alive in here
'Cause I wouldn't mind a throughbreeze
Sometimes it jumps through
Falling but I will warn you

Confusion is your world of reason
There's nothing that you can do

You wanna love them all
You only see the downside

You gotta come on and open up wide in here
'Cause I wouldn't mind a throughbreeze
Come on and get it alive in here
'Cause I wouldn't mind a throughbreeze
Sometimes it jumps through
Falling but I will warn you

E5-C5-E5-C5
D5-C5-E5

(Riff one)
Solo- Er no don't think so not today thank you!!!

You gotta come on and open up wide in here
'Cause I wouldn't mind a throughbreeze
Come on and get it alive in here
'Cause I wouldn't mind a throughbreeze
Sometimes it jumps through
Falling but I will warn you

e------2-------0-------
B----0---0---0---0-----
G--1-------------------
D----------2-----------
A----------------------
E----------------------